弦移動とクロマチックを組み合わせたピッキングとフィンガリングの練習方法 | ギター初心者上達委員会

クロマチックと弦移動を組み合わせてフィンガリングとピッキング強化

今までに紹介したフレーズのを組み合わせた応用編です。


クロマチックの間に挟まれた連続した弦移動が厄介なフレーズです。

弦移動とクロマチックを組み合わせた練習フレーズ譜面

以下のフレーズは全てオルタネイトピッキングで練習し、クロマチック演奏時も弦移動時も同じ粒立ち良いピッキングで力まず演奏出来るように練習しましょう。



|---------------------------------|-----------------
|---------------------------------|-------------1-2-
|-------------1-2-3-4-------------|-----------2-----
|-----------2---------3-----------|---------3-------
|---------3-------------2---------|-1-2-3-4---------
|-1-2-3-4-----------------1-2-3-4-|-----------------


-----------------|-------------1-2-3-4-------------|
-3-4-------------|-----------2---------3-----------|
-----3-----------|---------3-------------2---------|
-------2---------|-1-2-3-4-----------------1-2-3-4-|
---------1-2-3-4-|---------------------------------|
-----------------|---------------------------------|


|---------------------------------|
|-------------1-2-3-4-------------|
|-----------2---------3-----------|
|---------3-------------2---------|
|-1-2-3-4-----------------1-2-3-4-|
|---------------------------------|

弦移動時はスウィープピッキングと同じ要領で、指がフレットから離れても弦には触れている状態でミュートします。


続いてはフィンガリングパターンを逆にしたフレーズです。


ピッキングパターンは同じですが上記の運指に馴れてしまうほど弾くのが難しく感じるかもしれません。



|-4-3-2-1-----------------4-3-2-1-|-----------------
|---------2-------------3---------|-4-3-2-1---------
|-----------3---------2-----------|---------2-------
|-------------4-3-2-1-------------|-----------3-----
|---------------------------------|-------------4-3-
|---------------------------------|-----------------


-----------------|---------------------------------|
---------4-3-2-1-|---------------------------------|
-------3---------|-4-3-2-1-----------------4-3-2-1-|
-----2-----------|---------2-------------3---------|
-2-1-------------|-----------3---------2-----------|
-----------------|-------------4-3-2-1-------------|


|---------------------------------|-
|-4-3-2-1-----------------4-3-2-1-|
|---------2-------------3---------|
|-----------3---------2-----------|
|-------------4-3-2-1-------------|
|---------------------------------|

このパターンもピッキングの粒立ちはそうですが、クロマチック時の指を弦から離した時に


必要以上に指とフレットの距離が離れたり、押してない指がバタバタしないように意識して練習しましょう