小指の運指練習方法その2 | ギター初心者上達委員会

小指の運指力を鍛えましょう

続いて小指の運指力を鍛える基礎練習フレーズその2です。


ギター演奏において、小指をスムーズに動かせるようになることは非常に重要ですが、力みやすく馴れないうちに無理をすると指を痛めたり、腱鞘炎になってしまう場合も有ります。


手や指に痛みを感じたらすぐに休ませて無理の無い練習を心がけましょう。

小指の押弦力を鍛える運指練習

小指の運指を鍛える練習フレーズです。


弾く際は、人差し指と中指は弦(何処でも良いですが、3、4弦辺りが一番楽)を押さえたままフレットから指を離さないようにします。


以下は全てピッキングで弾きましょう。


|-------------------------------------------------|
|-------------------------------------------------|
|---------------------------------------------3-4-|
|---------------------3-4-----3-4-3-------3-4-----|
|-----3-4-3-------3-4-----3-4-------4-3-4---------|
|-3-4-------4-3-4---------------------------------|


|---------------------------------------------3-4-|
|---------------------3-4-----3-4-3-------3-4-----|
|-----3-4-3-------3-4-----3-4-------4-3-4---------|
|-3-4-------4-3-4---------------------------------|
|-------------------------------------------------|
|-------------------------------------------------|


|-4-3-------3-4-3---------------------------------|
|-----4-3-4-------4-3-----4-3-------3-4-3---------|
|---------------------4-3-----4-3-4-------4-3-----|
|---------------------------------------------4-3-|
|-------------------------------------------------|
|-------------------------------------------------|


|-------------------------------------------------|
|-------------------------------------------------|
|-4-3-------3-4-3---------------------------------|
|-----4-3-4-------4-3-----4-3-------3-4-3---------|
|---------------------4-3-----4-3-4-------4-3-----|
|---------------------------------------------4-3-|


最初は指や手首に力が入ってつりそうになったりすると思いますが


手の力を抜いて自然な指の動きでフィンガリングするように意識して演奏しましょう。