スライドによるリニア移動レガート練習フレーズ | ギター初心者上達委員会

スライドによるリニア移動レガートの弾き方

レガートのリニア移動とはスライドを利用して音を途切れさせずに移動して行く弾き方です。


B`zの松本孝弘さんが得意な早弾きのフレーズをイメージしてもらうと分かり易いかもしれません。
Callingのイントロの最後のブレイクで弾く早弾きのようなフレーズがこの指の動きになります。


弾き方としてはスライドする指が常にギターの弦を押さえているのでそこに力が入ってしまいがちです。


指は音が出る程度に触れているけど力が入っていない状態で、常にリラックスして弾く事を意識して下さい。


スライド時は、押して滑らせるより弦を撫でるようなイメージで弾くと良いと思います。

スライドによるポジション移動レガート練習フレーズ

練習フレーズは人差し指を支点にスライドさせていくフレーズです。


演奏中は人差し指で弦を押さえっぱなしになります。指の力を抜く意識で練習しましょう。


押すというより音が出る程度に触れるイメージです。


初心者の方は、ネックを支えている親指側もスライドで音が出ないと強く挟むように力を込めてしまいがちなので注意です。


まずは2本指ですばやくスライドで移動する練習フレーズです。



    p  s h  p s h p s h p s h p s h p s h p s h p s
|-12-10-9-10-9-7-9-7-5-7-5-4-5-4-2-4-2-4-5-4-5-7-5-
|--------------------------------------------------
|--------------------------------------------------
|--------------------------------------------------
|--------------------------------------------------
|--------------------------------------------------


  h p s h  p s  h  p  h
-7-9-7-9-10-9-10-12-10-|
-----------------------|
-----------------------|
-----------------------|
-----------------------|
-----------------------|


ポジション移動が早く力を抜くのが難しいフレーズだと思いますのでリラックスして弾く意識で練習しましょう。


次は3本指のフィンガリングパターンの練習です。



    p  p s h  p p s h p p s h p p s p p p s h p p s
|-12-10-9-7-10-9-7-5-9-7-5-4-7-5-4-2-5-4-2-4-7-5-4-
|--------------------------------------------------
|--------------------------------------------------
|--------------------------------------------------
|--------------------------------------------------
|--------------------------------------------------


  h p p s h  p p s h
-5-9-7-5-7-10-9-7-9-|
--------------------|
--------------------|
--------------------|
--------------------|
--------------------|


最後は上記のフレーズを応用して音数を増やしたパターンです。


長いので、初心者の方は焦らずパート毎に分けて指使いやスライドの移動先を覚えるように練習しましょう。



    p h  h  p  p s h h  p h h  p p s h h p h h p p s
|-12-9-10-12-10-9-7-9-10-7-9-10-9-7-5-7-9-5-7-9-7-5-
|---------------------------------------------------
|---------------------------------------------------
|---------------------------------------------------
|---------------------------------------------------
|---------------------------------------------------


  h h p h h p p s h   h p h h p p s h h p h h p p s h
-4-5-7-4-5-7-5-4-2-4-|-5-2-4-5-4-2-4-5-7-4-5-7-5-4-5-
---------------------|-------------------------------
---------------------|-------------------------------
---------------------|-------------------------------
---------------------|-------------------------------
---------------------|-------------------------------


  h p h h p p s h h  p h h  p p s h  h 
-7-9-5-7-9-7-5-7-9-10-7-9-10-9-7-9-10-|
--------------------------------------|
--------------------------------------|
--------------------------------------|
--------------------------------------|
--------------------------------------|

全てのフレーズに言える事ですが


音がしっかり出ない時はプリングでしっかり弦を引っ掛けていないか、ハンマリングやスライドでのポジション移動後にフレットの真横では無く離れた位置を押してしまっている事が原因の大半だと思いますので、初心者の方は指の位置をチェックして練習しましょう。