弦移動レガート練習フレーズ | ギター初心者上達委員会

レガートで弦移動する弾き方

レガートで弦移動するフレーズを弾く場合、特にギター初心者の場合は全ての音を左手だけで出す事は難しいと思います。
(特に左手の人差し指で弦移動した場合)


プロギタリストもそうですが、レガートの弦移動フレーズの弾き方として
・全くピッキングしない弾き方
・弦移動時の最初の音だけピッキングする弾き方
・高音弦へ移動する最初だけピッキングし、低音弦への移動時は左手だけで音を出す弾き方


主にこの3パターンの弾き方に分かれるような気がします。


ギター初心者の方は特に弾き方などは気にせず色々試してみて、自分が弾き易い弾き方でまずは練習するのが良いと思います。


弦移動したら左手の人差し指の指先で上の弦に触れるようなポジションを押さえ、右手の平で低音弦をミュートします。


弦移動時に開放弦等が鳴らないようにミュートする練習も併せて行いましょう。

弦移動レガートの練習フレーズ

まずは簡単なフィンガリングパターンで、レガートで弦移動する弾き方を指に覚えさせるように練習しましょう。


ハンマリングから始まる練習パターンです。


   h h   h h p p   p p h h   h h
|-------4-5-7-5-4-----------4-5-7-|
|-4-5-7-----------7-5-4-5-7-------|
|---------------------------------|
|---------------------------------|
|---------------------------------|
|---------------------------------|

続いてプリングから始まる練習パターンです。使用する指は同じです。


   p p   p p h h   h h p p   p p
|-7-5-4-----------4-5-7-5-4-------|
|-------7-5-4-5-7-----------7-5-4-|
|---------------------------------|
|---------------------------------|
|---------------------------------|
|---------------------------------|

次は小指と薬指のパターンで練習しましょう。


   h h   h h p p   p p h h   h h
|-------2-4-5-4-2-----------2-4-5-|
|-2-4-5-----------5-4-2-4-5-------|
|---------------------------------|
|---------------------------------|
|---------------------------------|
|---------------------------------|

プリングから始まる練習パターンです。


   p p   p p h h   h h p p   p p
|-5-4-2-----------2-4-5-4-2-------|
|-------5-4-2-4-5-----------5-4-2-|
|---------------------------------|
|---------------------------------|
|---------------------------------|
|---------------------------------|

最後はストレッチフィンガリングで弾くパターンで練習しましょう。


   h h   h h p p   p p h h   h h
|-------5-7-9-7-5-----------5-7-9-|
|-5-7-9-----------9-7-5-7-9-------|
|---------------------------------|
|---------------------------------|
|---------------------------------|
|---------------------------------|

プリングから始まる練習パターンです。


   p p   p p h h   h h p p   p p
|-9-7-5-----------5-7-9-7-5-------|
|-------9-7-5-7-9-----------9-7-5-|
|---------------------------------|
|---------------------------------|
|---------------------------------|
|---------------------------------|

基本的なパターンの練習は以上です。


ギター初心者の方は早く演奏したくなるかもしれませんが、まずはしっかり左手だけで音を出す弾き方を覚えること、そして弦を移動した時に余計な音を出さないようにミュートする事を練習しましょう。