1弦2音・2弦1音の弦移動時のピッキングパターンが入れ替わるオルタネイトピッキング練習フレーズ | ギター初心者上達委員会

1弦2音・2弦1音の弦移動ピッキング練習用楽譜

1弦2音・2弦1音の3連符による弦移動時にオルタネイトピッキングのアップとダウンが交互に入れ替わる弦移動練習フレーズです。


1泊3音の3連符で、全てオルタネイトピッキングで練習しましょう。


メトロノームでリズムをキープする練習も併せて行うのを忘れずに


慣れてきたら16分音符で弾くとアクセントもずれてリズム的にも難しい練習フレーズになりますね。


1弦ダウンピッキングから2弦アップピッキングのピッキングパターンで弦を引っかけ易く、そこを意識しすぎると右手の動きが固くなりやすいので、そこを如何に上手く弾きこなすかがこのフレーズの肝ですね。



弦移動練習フレーズ楽譜

1弦から始まるパターン

|-15-14----15-14----15-14----15-14----
|-------12-------12-------12-------12-
|-------------------------------------
|-------------------------------------
|-------------------------------------

-14-12----14-12----14-12----14-12----
-------10-------10-------10-------10-
-------------------------------------
-------------------------------------
-------------------------------------
-------------------------------------

-12-10---12-10---12-10---12-10---
-------8-------8-------8-------8-
---------------------------------
---------------------------------
---------------------------------
---------------------------------

-14-12----14-12----14-12----14-12----
-------10-------10-------10-------10-
-------------------------------------
-------------------------------------
-------------------------------------
-------------------------------------



続いて2弦から始まるパターン

|----14-15----14-15----14-15----14-15-
|-12-------12-------12-------12-------
|-------------------------------------
|-------------------------------------
|-------------------------------------

----12-14----12-14----12-14----12-14-
-10-------10-------10-------10-------
-------------------------------------
-------------------------------------
-------------------------------------
-------------------------------------

---10-12---10-12---10-12---10-12-
-8-------8-------8-------8-------
---------------------------------
---------------------------------
---------------------------------
---------------------------------

----12-14----12-14----12-14----12-14-
-10-------10-------10-------10-------
-------------------------------------
-------------------------------------
-------------------------------------
-------------------------------------

如何でしょうか?1弦からと2弦からではピッキングパターンは同じでも少し感覚が違うのではないでしょうか?


「別に変わらないけど?」と思ったあなたは、かなりピッキングが上手なギタリストのようですね。


上手く出来なかったあなたは、入れ替わるピッキングパターンに惑わされて右手に余計な力が入らないようスムーズに弾けるように練習しましょう。


コツと言うほどではないですが、1弦をピッキングする時に右手のピッキングポジションを下に動かすようなイメージでしょうか?


動かすといっても視覚的にはほとんど分からない位気持ちです。