2弦1音・1弦2音の弦移動時のピッキングパターンが入れ替わるオルタネイトピッキング練習フレーズ | ギター初心者上達委員会

2弦1音・1弦2音の弦移動ピッキング練習用楽譜

2弦1音・1弦2音の3連符による弦移動時にオルタネイトピッキングのアップとダウンが交互に入れ替わる弦移動練習フレーズです。


前回紹介した1弦2音・2弦1音のピッキングパターンの別バージョンです。


このフレーズも1泊3音の3連符で、全てオルタネイトピッキングで練習しましょう。


メトロノームでリズムをキープする練習方法で確実に弾けるテンポから徐々にテンポアップしていくと良いです。


2弦をアップピッキングしてから1弦をダウンピッキングし、また2弦にアップピッキングで戻るインサイドピッキングのパターンが難しいのではないでしょうか?


連続で弦移動する部分を手首の力を抜いた柔らかいピッキングで演奏するのがコツですね。



弦移動練習フレーズ楽譜

1弦から始まるパターン

|-12------12------12------12------
|----9-10----9-10----9-10----9-10-
|---------------------------------
|---------------------------------
|---------------------------------

-14-------14-------14-------14-------
----10-12----10-12----10-12----10-12-
-------------------------------------
-------------------------------------
-------------------------------------
-------------------------------------

-16-------16-------16-------16-------
----12-14----12-14----12-14----12-14-
-------------------------------------
-------------------------------------
-------------------------------------
-------------------------------------

-14-------14-------14-------14-------
----10-12----10-12----10-12----10-12-
-------------------------------------
-------------------------------------
-------------------------------------
-------------------------------------



続いて2弦から始まるパターン

|------12------12-15----14-15----14-15-
|-9-10----9-10--------12-------12-------
|-------------------------------------
|-------------------------------------
|-------------------------------------

----12-14----12-14----12-14----12-14-
-10-------10-------10-------10-------
-------------------------------------
-------------------------------------
-------------------------------------
-------------------------------------

---10-12---10-12---10-12---10-12-
-8-------8-------8-------8-------
---------------------------------
---------------------------------
---------------------------------
---------------------------------

----12-14----12-14----12-14----12-14-
-10-------10-------10-------10-------
-------------------------------------
-------------------------------------
-------------------------------------
-------------------------------------

1弦からと2弦の音数が入れ替わっただけのフレーズですが、弾いた感覚がかなり違うのではないでしょうか?


スムーズに弾けない方があなたの苦手なピッキングパターンですので、苦手なパターンを重点的に練習して苦手なパターンを克服していきましょう。


一番意識する事は、入れ替わるピッキングパターンや連続した弦移動時に右手に余計な力が入らないようスムーズに弾けるように練習する事です。